0
SECTION
2
HEADER
9
$INSUNITS
70
4
9
$ACADVER
1
AC1014
9
$HANDSEED
5
FFFF
0
ENDSEC
0
SECTION
2
TABLES
0
TABLE
2
VPORT
5
8
100
AcDbSymbolTable
0
ENDTAB
0
TABLE
2
LTYPE
5
5
100
AcDbSymbolTable
0
LTYPE
5
14
100
AcDbSymbolTableRecord
100
AcDbLinetypeTableRecord
2
BYBLOCK
70
0
0
LTYPE
5
15
100
AcDbSymbolTableRecord
100
AcDbLinetypeTableRecord
2
BYLAYER
70
0
0
ENDTAB
0
TABLE
2
LAYER
5
2
100
AcDbSymbolTable
70
2
0
LAYER
5
50
100
AcDbSymbolTableRecord
100
AcDbLayerTableRecord
2
0
70
0
6
CONTINUOUS
0
ENDTAB
0
TABLE
2
STYLE
5
3
100
AcDbSymbolTable
70
1
0
STYLE
5
11
100
AcDbSymbolTableRecord
100
AcDbTextStyleTableRecord
2
STANDARD
70
0
0
ENDTAB
0
TABLE
2
VIEW
5
6
100
AcDbSymbolTable
70
0
0
ENDTAB
0
TABLE
2
UCS
5
7
100
AcDbSymbolTable
70
0
0
ENDTAB
0
TABLE
2
APPID
5
9
100
AcDbSymbolTable
70
2
0
APPID
5
12
100
AcDbSymbolTableRecord
100
AcDbRegAppTableRecord
2
ACAD
70
0
0
ENDTAB
0
TABLE
2
DIMSTYLE
5
A
100
AcDbSymbolTable
70
1
0
ENDTAB
0
TABLE
2
BLOCK_RECORD
5
1
100
AcDbSymbolTable
70
1
0
BLOCK_RECORD
5
1F
100
AcDbSymbolTableRecord
100
AcDbBlockTableRecord
2
*MODEL_SPACE
0
BLOCK_RECORD
5
1B
100
AcDbSymbolTableRecord
100
AcDbBlockTableRecord
2
*PAPER_SPACE
0
ENDTAB
0
ENDSEC
0
SECTION
2
BLOCKS
0
BLOCK
5
20
100
AcDbEntity
100
AcDbBlockBegin
2
*MODEL_SPACE
0
ENDBLK
5
21
100
AcDbEntity
100
AcDbBlockEnd
0
BLOCK
5
1C
100
AcDbEntity
100
AcDbBlockBegin
2
*PAPER_SPACE
0
ENDBLK
5
1D
100
AcDbEntity
100
AcDbBlockEnd
0
ENDSEC
0
SECTION
2
ENTITIES
0
CIRCLE
5
100
100
AcDbEntity
8
0
100
AcDbCircle
10
-10.000000000000021
20
-214.99999999999997
30
0
40
2.7000000000000002
210
0
220
-0
230
1
0
CIRCLE
5
101
100
AcDbEntity
8
0
100
AcDbCircle
10
-189.99999999999997
20
-214.99999999999997
30
0
40
2.6999999999999957
210
0
220
-0
230
1
0
CIRCLE
5
102
100
AcDbEntity
8
0
100
AcDbCircle
10
-189.99999999999997
20
-10.00000000000002
30
0
40
2.6999999999999957
210
0
220
-0
230
1
0
CIRCLE
5
103
100
AcDbEntity
8
0
100
AcDbCircle
10
-9.9999999999999893
20
-9.9999999999999911
30
0
40
2.7000000000000011
210
0
220
-0
230
1
0
CIRCLE
5
104
100
AcDbEntity
8
0
100
AcDbCircle
10
-86.5
20
-197
30
0
40
2.4000000000000021
210
0
220
-0
230
1
0
CIRCLE
5
105
100
AcDbEntity
8
0
100
AcDbCircle
10
-113.5
20
-197
30
0
40
2.4000000000000021
210
0
220
-0
230
1
0
LWPOLYLINE
5
106
100
AcDbEntity
8
0
100
AcDbPolyline
90
8
70
1
43
0.0
10
0
20
-10.000000000000004
42
0.4142135623730957
10
-9.9999999999999982
20
-1.1102230246251345e-15
10
-190
20
0
42
0.41421356237309342
10
-200
20
-10
10
-200
20
-215
42
0.41421356237309293
10
-190
20
-225
10
-10
20
-225
42
0.41421356237309337
10
1.3322676295502006e-14
20
-215
0
CIRCLE
5
107
100
AcDbEntity
8
0
100
AcDbCircle
10
-10.000000000000021
20
-214.99999999999997
30
0
40
2.7000000000000002
210
-0
220
0
230
1
0
LINE
5
108
100
AcDbEntity
8
0
100
AcDbLine
10
-190
20
-225
30
0
11
-10
21
-225
31
0
0
ARC
5
109
100
AcDbEntity
8
0
100
AcDbCircle
10
-10.000000000000021
20
-214.99999999999997
30
0
40
10.000000000000036
210
-0
220
0
230
1
100
AcDbArc
50
270.00000000000011
51
360
0
CIRCLE
5
110
100
AcDbEntity
8
0
100
AcDbCircle
10
-10.000000000000021
20
-214.99999999999997
30
0
40
2.7000000000000002
210
0
220
-0
230
1
0
LINE
5
111
100
AcDbEntity
8
0
100
AcDbLine
10
1.1102230246251565e-14
20
-215
30
0
11
0
21
-10
31
0
0
ARC
5
112
100
AcDbEntity
8
0
100
AcDbCircle
10
-9.9999999999999893
20
-9.9999999999999911
30
0
40
9.9999999999999893
210
-0
220
0
230
1
100
AcDbArc
50
0
51
90.000000000000057
0
LINE
5
113
100
AcDbEntity
8
0
100
AcDbLine
10
-9.9999999999999982
20
0
30
0
11
-190
21
0
31
0
0
CIRCLE
5
114
100
AcDbEntity
8
0
100
AcDbCircle
10
-9.9999999999999893
20
-9.9999999999999911
30
0
40
2.7000000000000002
210
-0
220
0
230
1
0
ARC
5
115
100
AcDbEntity
8
0
100
AcDbCircle
10
-189.99999999999997
20
-10.00000000000002
30
0
40
10.00000000000002
210
0
220
0
230
1
100
AcDbArc
50
90.000000000000171
51
180
0
LINE
5
116
100
AcDbEntity
8
0
100
AcDbLine
10
-200
20
-9.9999999999999982
30
0
11
-200
21
-215
31
0
0
CIRCLE
5
117
100
AcDbEntity
8
0
100
AcDbCircle
10
-189.99999999999997
20
-10.00000000000002
30
0
40
2.7000000000000002
210
-0
220
0
230
1
0
ARC
5
118
100
AcDbEntity
8
0
100
AcDbCircle
10
-189.99999999999997
20
-214.99999999999997
30
0
40
10.000000000000036
210
0
220
0
230
1
100
AcDbArc
50
180
51
269.99999999999983
0
CIRCLE
5
119
100
AcDbEntity
8
0
100
AcDbCircle
10
-189.99999999999997
20
-214.99999999999997
30
0
40
2.7000000000000002
210
-0
220
0
230
1
0
CIRCLE
5
120
100
AcDbEntity
8
0
100
AcDbCircle
10
-86.5
20
-197
30
0
40
2.3999999999999999
210
-0
220
0
230
1
0
ENDSEC
0
SECTION
2
OBJECTS
0
DICTIONARY
5
C
100
AcDbDictionary
3
ACAD_GROUP
350
D
3
ACAD_MLINESTYLE
350
17
0
DICTIONARY
5
D
100
AcDbDictionary
0
DICTIONARY
5
1A
330
C
100
AcDbDictionary
0
DICTIONARY
5
17
100
AcDbDictionary
0
ENDSEC
0
EOF
